Turn Away


Verse 1
E|--------------------------------------
B|--------------------------------------
G|--------------------------------------
D|--------------------------------------
A|-----5--3--------------------------2--
E|--7--------5--3--3--2--2--3--2--0-----

Why do you stare at me as if I’d done some wrong?

Verse 2
E|-----------------------------------------------------------
B|-----------------------------------------------------------
G|-----------------------------------------------------------
D|-----------------------------------------------------------
A|--0--------------5--5--3--3-----------------------------2--
E|-----3--5--7--7--------------5--5--3--3--2--2--3--2--0-----

So turn, turn, turn and see that nothing I’ve done here is your failure or your fault

Verse 3
E|-----------------------------------------------------------
B|-----------------------------------------------------------
G|-----------------------------------------------------------
D|-----------------------------------------------------------
A|--0--------------5--5--3--3-----------------------------2--
E|-----3--5--7--7--------------5--5--3--3--2--2--3--2--0-----

So turn, turn, turn to me and forgive me for leaving you here all on your own

Verse 4
E|-----------------------------------------------------------
B|-----------------------------------------------------------
G|-----------------------------------------------------------
D|-----------------------------------------------------------
A|--0--------------5--5--3--3-----------------------------2--
E|-----3--5--7--7--------------5--5--3--3--2--2--3--2--0-----

So turn, turn, turn ahead and don’t look back and leave me here to die on my own

Verse 4
E|-----------------------------------------------------------
B|-----------------------------------------------------------
G|-----------------------------------------------------------
D|-----------------------------------------------------------
A|--0--------------5--5--3--3-----------------------------2--
E|-----3--5--7--7--------------5--5--3--3--2--2--3--2--0-----

So turn, turn, turn aside from the pain and futile regret I have left you with

Verse 6
E|--------------------------
B|--------------------------
G|--------------------------
D|--------------------------
A|--2-----------------------
E|-----3--5--3--3--2--2--0--

So turn, turn, turn away and live.

Leave a Reply

Fill in your details below or click an icon to log in:

WordPress.com Logo

You are commenting using your WordPress.com account. Log Out / Change )

Twitter picture

You are commenting using your Twitter account. Log Out / Change )

Facebook photo

You are commenting using your Facebook account. Log Out / Change )

Google+ photo

You are commenting using your Google+ account. Log Out / Change )

Connecting to %s